ISO-10303-21;
HEADER;
FILE_DESCRIPTION (( 'STEP AP203' ),
    '1' );
FILE_NAME ('Q-QZWP-R4-25.4-355-M.STEP',
    '2020-12-23T01:27:33',
    ( '' ),
    ( '' ),
    'SwSTEP 2.0',
    'SolidWorks 2020',
    '' );
FILE_SCHEMA (( 'CONFIG_CONTROL_DESIGN' ));
ENDSEC;

DATA;
#1 = MANIFOLD_SOLID_BREP ( 'Ðý×', #62 ) ;
#2 = DIRECTION ( 'NONE',  ( 0.000000000000000000, 0.000000000000000000, 1.000000000000000000 ) ) ;
#3 = SECURITY_CLASSIFICATION ( '', '', #160 ) ;
#4 = ORGANIZATION ( 'UNSPECIFIED', 'UNSPECIFIED', '' ) ;
#5 = VERTEX_POINT ( 'NONE', #119 ) ;
#6 = CC_DESIGN_DATE_AND_TIME_ASSIGNMENT ( #37, #40, ( #3 ) ) ;
#7 =( LENGTH_UNIT ( ) NAMED_UNIT ( * ) SI_UNIT ( .MILLI., .METRE. ) );
#8 = DIRECTION ( 'NONE',  ( 0.000000000000000000, 0.000000000000000000, 1.000000000000000000 ) ) ;
#9 = DATE_TIME_ROLE ( 'creation_date' ) ;
#10 = PERSON_AND_ORGANIZATION_ROLE ( 'creator' ) ;
#11 = AXIS2_PLACEMENT_3D ( 'NONE', #113, #158, #2 ) ;
#12 = APPROVAL_ROLE ( '' ) ;
#13 = DIRECTION ( 'NONE',  ( -1.000000000000000000, -0.000000000000000000, -0.000000000000000000 ) ) ;
#14 = EDGE_CURVE ( 'NONE', #47, #5, #151, .T. ) ;
#15 = PERSON_AND_ORGANIZATION ( #61, #4 ) ;
#16 = DIRECTION ( 'NONE',  ( -1.000000000000000000, -0.000000000000000000, -0.000000000000000000 ) ) ;
#17 = ADVANCED_FACE ( 'NONE', ( #106 ), #88, .T. ) ;
#18 = APPROVAL_PERSON_ORGANIZATION ( #164, #122, #107 ) ;
#19 = DESIGN_CONTEXT ( 'detailed design', #117, 'design' ) ;
#20 = CC_DESIGN_APPROVAL ( #155, ( #149 ) ) ;
#21 = ORIENTED_EDGE ( 'NONE', *, *, #84, .F. ) ;
#22 = DIRECTION ( 'NONE',  ( -1.000000000000000000, -0.000000000000000000, -0.000000000000000000 ) ) ;
#23 = COORDINATED_UNIVERSAL_TIME_OFFSET ( 8, 0, .AHEAD. ) ;
#24 = LOCAL_TIME ( 9, 27, 33.00000000000000000, #23 ) ;
#25 = DATE_AND_TIME ( #91, #53 ) ;
#26 = PERSON_AND_ORGANIZATION ( #61, #4 ) ;
#27 = PLANE ( 'NONE',  #115 ) ;
#28 = AXIS2_PLACEMENT_3D ( 'NONE', #64, #145, #69 ) ;
#29 = CARTESIAN_POINT ( 'NONE',  ( 3.000000000000000888, 12.69999999999999929, 0.000000000000000000 ) ) ;
#30 = ADVANCED_FACE ( 'NONE', ( #65 ), #148, .T. ) ;
#31 = CC_DESIGN_APPROVAL ( #73, ( #142 ) ) ;
#32 = ORIENTED_EDGE ( 'NONE', *, *, #84, .T. ) ;
#33 = VECTOR ( 'NONE', #16, 1000.000000000000000 ) ;
#34 = AXIS2_PLACEMENT_3D ( 'NONE', #141, #43, #8 ) ;
#35 = CARTESIAN_POINT ( 'NONE',  ( -3.000000000000000000, 0.000000000000000000, 0.000000000000000000 ) ) ;
#36 = DIRECTION ( 'NONE',  ( -1.000000000000000000, 0.000000000000000000, -0.000000000000000000 ) ) ;
#37 = DATE_AND_TIME ( #109, #99 ) ;
#38 = DIRECTION ( 'NONE',  ( -1.000000000000000000, -0.000000000000000000, -0.000000000000000000 ) ) ;
#39 = CC_DESIGN_DATE_AND_TIME_ASSIGNMENT ( #76, #9, ( #142 ) ) ;
#40 = DATE_TIME_ROLE ( 'classification_date' ) ;
#41 = DATE_AND_TIME ( #94, #144 ) ;
#42 = PERSON_AND_ORGANIZATION_ROLE ( 'creator' ) ;
#43 = DIRECTION ( 'NONE',  ( -1.000000000000000000, -0.000000000000000000, -0.000000000000000000 ) ) ;
#44 = DIRECTION ( 'NONE',  ( 0.000000000000000000, 0.000000000000000000, -1.000000000000000000 ) ) ;
#45 = EDGE_LOOP ( 'NONE', ( #85, #63, #172, #21 ) ) ;
#46 =( GEOMETRIC_REPRESENTATION_CONTEXT ( 3 ) GLOBAL_UNCERTAINTY_ASSIGNED_CONTEXT ( ( #167 ) ) GLOBAL_UNIT_ASSIGNED_CONTEXT ( ( #7, #49, #97 ) ) REPRESENTATION_CONTEXT ( 'NONE', 'WORKASPACE' ) );
#47 = VERTEX_POINT ( 'NONE', #161 ) ;
#48 = AXIS2_PLACEMENT_3D ( 'NONE', #125, #22, #82 ) ;
#49 =( NAMED_UNIT ( * ) PLANE_ANGLE_UNIT ( ) SI_UNIT ( $, .RADIAN. ) );
#50 = CARTESIAN_POINT ( 'NONE',  ( 0.000000000000000000, 0.000000000000000000, 0.000000000000000000 ) ) ;
#51 = CARTESIAN_POINT ( 'NONE',  ( 3.000000000000000000, 0.000000000000000000, 0.000000000000000000 ) ) ;
#52 = PERSON_AND_ORGANIZATION_ROLE ( 'classification_officer' ) ;
#53 = LOCAL_TIME ( 9, 27, 33.00000000000000000, #105 ) ;
#54 = PERSON_AND_ORGANIZATION ( #61, #4 ) ;
#55 = PERSON_AND_ORGANIZATION_ROLE ( 'design_supplier' ) ;
#56 = DIRECTION ( 'NONE',  ( -1.000000000000000000, -0.000000000000000000, -0.000000000000000000 ) ) ;
#57 = PLANE ( 'NONE',  #132 ) ;
#58 = CC_DESIGN_PERSON_AND_ORGANIZATION_ASSIGNMENT ( #15, #140, ( #157 ) ) ;
#59 = ORIENTED_EDGE ( 'NONE', *, *, #14, .F. ) ;
#60 = PRODUCT_RELATED_PRODUCT_CATEGORY ( 'detail', '', ( #157 ) ) ;
#61 = PERSON ( 'UNSPECIFIED', 'UNSPECIFIED', 'UNSPECIFIED', ('UNSPECIFIED'), ('UNSPECIFIED'), ('UNSPECIFIED') ) ;
#62 = CLOSED_SHELL ( 'NONE', ( #30, #101, #17, #169 ) ) ;
#63 = ORIENTED_EDGE ( 'NONE', *, *, #153, .T. ) ;
#64 = CARTESIAN_POINT ( 'NONE',  ( -3.000000000000000000, 0.000000000000000000, 0.000000000000000000 ) ) ;
#65 = FACE_OUTER_BOUND ( 'NONE', #118, .T. ) ;
#66 = PERSON_AND_ORGANIZATION ( #61, #4 ) ;
#67 = COORDINATED_UNIVERSAL_TIME_OFFSET ( 8, 0, .AHEAD. ) ;
#68 = PERSON_AND_ORGANIZATION ( #61, #4 ) ;
#69 = DIRECTION ( 'NONE',  ( 0.000000000000000000, 0.000000000000000000, 1.000000000000000000 ) ) ;
#70 = COORDINATED_UNIVERSAL_TIME_OFFSET ( 8, 0, .AHEAD. ) ;
#71 = FACE_OUTER_BOUND ( 'NONE', #130, .T. ) ;
#72 = ORIENTED_EDGE ( 'NONE', *, *, #108, .F. ) ;
#73 = APPROVAL ( #150, 'UNSPECIFIED' ) ;
#74 = CARTESIAN_POINT ( 'NONE',  ( -3.000000000000000000, 0.000000000000000000, 15.00000000000000000 ) ) ;
#75 = AXIS2_PLACEMENT_3D ( 'NONE', #50, #174, #163 ) ;
#76 = DATE_AND_TIME ( #133, #127 ) ;
#77 = APPROVAL_STATUS ( 'not_yet_approved' ) ;
#78 = APPROVAL_DATE_TIME ( #121, #73 ) ;
#79 = LINE ( 'NONE', #139, #83 ) ;
#80 = CC_DESIGN_PERSON_AND_ORGANIZATION_ASSIGNMENT ( #68, #52, ( #3 ) ) ;
#81 = CARTESIAN_POINT ( 'NONE',  ( -1.614212418857619014, 1.836970198721029589E-15, -15.00000000000000000 ) ) ;
#82 = DIRECTION ( 'NONE',  ( 0.000000000000000000, 0.000000000000000000, 1.000000000000000000 ) ) ;
#83 = VECTOR ( 'NONE', #13, 1000.000000000000000 ) ;
#84 = EDGE_CURVE ( 'NONE', #171, #168, #116, .T. ) ;
#85 = ORIENTED_EDGE ( 'NONE', *, *, #159, .F. ) ;
#86 = AXIS2_PLACEMENT_3D ( 'NONE', #51, #56, #165 ) ;
#87 = DIRECTION ( 'NONE',  ( -0.000000000000000000, 0.000000000000000000, 1.000000000000000000 ) ) ;
#88 = CYLINDRICAL_SURFACE ( 'NONE', #34, 15.00000000000000000 ) ;
#89 = SHAPE_DEFINITION_REPRESENTATION ( #146, #135 ) ;
#90 = DIRECTION ( 'NONE',  ( 0.000000000000000000, 0.000000000000000000, 1.000000000000000000 ) ) ;
#91 = CALENDAR_DATE ( 2020, 23, 12 ) ;
#92 = PERSON_AND_ORGANIZATION ( #61, #4 ) ;
#93 = MECHANICAL_CONTEXT ( 'NONE', #98, 'mechanical' ) ;
#94 = CALENDAR_DATE ( 2020, 23, 12 ) ;
#95 = FACE_OUTER_BOUND ( 'NONE', #126, .T. ) ;
#96 = CARTESIAN_POINT ( 'NONE',  ( -3.000000000000000000, 1.836970198721029589E-15, -15.00000000000000000 ) ) ;
#97 =( NAMED_UNIT ( * ) SI_UNIT ( $, .STERADIAN. ) SOLID_ANGLE_UNIT ( ) );
#98 = APPLICATION_CONTEXT ( 'configuration controlled 3d designs of mechanical parts and assemblies' ) ;
#99 = LOCAL_TIME ( 9, 27, 33.00000000000000000, #67 ) ;
#100 = ORIENTED_EDGE ( 'NONE', *, *, #120, .T. ) ;
#101 = ADVANCED_FACE ( 'NONE', ( #95 ), #27, .F. ) ;
#102 = CC_DESIGN_PERSON_AND_ORGANIZATION_ASSIGNMENT ( #26, #42, ( #149 ) ) ;
#103 = ORIENTED_EDGE ( 'NONE', *, *, #120, .F. ) ;
#104 = CC_DESIGN_APPROVAL ( #122, ( #3 ) ) ;
#105 = COORDINATED_UNIVERSAL_TIME_OFFSET ( 8, 0, .AHEAD. ) ;
#106 = FACE_OUTER_BOUND ( 'NONE', #45, .T. ) ;
#107 = APPROVAL_ROLE ( '' ) ;
#108 = EDGE_CURVE ( 'NONE', #47, #168, #79, .T. ) ;
#109 = CALENDAR_DATE ( 2020, 23, 12 ) ;
#110 = APPROVAL_PERSON_ORGANIZATION ( #54, #73, #173 ) ;
#111 = PERSON_AND_ORGANIZATION ( #61, #4 ) ;
#112 = APPLICATION_PROTOCOL_DEFINITION ( 'international standard', 'config_control_design', 1994, #98 ) ;
#113 = CARTESIAN_POINT ( 'NONE',  ( -1.614212418857619014, 0.000000000000000000, 0.000000000000000000 ) ) ;
#114 = CARTESIAN_POINT ( 'NONE',  ( -3.000000000000000888, 12.69999999999999929, 0.000000000000000000 ) ) ;
#115 = AXIS2_PLACEMENT_3D ( 'NONE', #29, #36, #87 ) ;
#116 = CIRCLE ( 'NONE', #170, 15.00000000000000000 ) ;
#117 = APPLICATION_CONTEXT ( 'configuration controlled 3d designs of mechanical parts and assemblies' ) ;
#118 = EDGE_LOOP ( 'NONE', ( #147, #154, #103, #72 ) ) ;
#119 = CARTESIAN_POINT ( 'NONE',  ( 3.000000000000000000, 1.836970198721029589E-15, -15.00000000000000000 ) ) ;
#120 = EDGE_CURVE ( 'NONE', #168, #171, #138, .T. ) ;
#121 = DATE_AND_TIME ( #134, #24 ) ;
#122 = APPROVAL ( #77, 'UNSPECIFIED' ) ;
#123 = CC_DESIGN_SECURITY_CLASSIFICATION ( #3, ( #149 ) ) ;
#124 = APPLICATION_PROTOCOL_DEFINITION ( 'international standard', 'config_control_design', 1994, #117 ) ;
#125 = CARTESIAN_POINT ( 'NONE',  ( 3.000000000000000000, 0.000000000000000000, 0.000000000000000000 ) ) ;
#126 = EDGE_LOOP ( 'NONE', ( #59, #143 ) ) ;
#127 = LOCAL_TIME ( 9, 27, 33.00000000000000000, #70 ) ;
#128 = CC_DESIGN_PERSON_AND_ORGANIZATION_ASSIGNMENT ( #111, #55, ( #149 ) ) ;
#129 = CIRCLE ( 'NONE', #48, 15.00000000000000000 ) ;
#130 = EDGE_LOOP ( 'NONE', ( #100, #32 ) ) ;
#131 = APPROVAL_PERSON_ORGANIZATION ( #92, #155, #12 ) ;
#132 = AXIS2_PLACEMENT_3D ( 'NONE', #114, #166, #44 ) ;
#133 = CALENDAR_DATE ( 2020, 23, 12 ) ;
#134 = CALENDAR_DATE ( 2020, 23, 12 ) ;
#135 = ADVANCED_BREP_SHAPE_REPRESENTATION ( 'Q-QZWP-R4-25.4-355-M', ( #1, #75 ), #46 ) ;
#136 = COORDINATED_UNIVERSAL_TIME_OFFSET ( 8, 0, .AHEAD. ) ;
#137 = APPROVAL_STATUS ( 'not_yet_approved' ) ;
#138 = CIRCLE ( 'NONE', #28, 15.00000000000000000 ) ;
#139 = CARTESIAN_POINT ( 'NONE',  ( -1.614212418857619014, 0.000000000000000000, 15.00000000000000000 ) ) ;
#140 = PERSON_AND_ORGANIZATION_ROLE ( 'design_owner' ) ;
#141 = CARTESIAN_POINT ( 'NONE',  ( -1.614212418857619014, 0.000000000000000000, 0.000000000000000000 ) ) ;
#142 = PRODUCT_DEFINITION ( 'UNKNOWN', '', #149, #19 ) ;
#143 = ORIENTED_EDGE ( 'NONE', *, *, #153, .F. ) ;
#144 = LOCAL_TIME ( 9, 27, 33.00000000000000000, #136 ) ;
#145 = DIRECTION ( 'NONE',  ( -1.000000000000000000, -0.000000000000000000, -0.000000000000000000 ) ) ;
#146 = PRODUCT_DEFINITION_SHAPE ( 'NONE', 'NONE',  #142 ) ;
#147 = ORIENTED_EDGE ( 'NONE', *, *, #14, .T. ) ;
#148 = CYLINDRICAL_SURFACE ( 'NONE', #11, 15.00000000000000000 ) ;
#149 = PRODUCT_DEFINITION_FORMATION_WITH_SPECIFIED_SOURCE ( 'ANY', '', #157, .NOT_KNOWN. ) ;
#150 = APPROVAL_STATUS ( 'not_yet_approved' ) ;
#151 = CIRCLE ( 'NONE', #86, 15.00000000000000000 ) ;
#152 = LINE ( 'NONE', #81, #33 ) ;
#153 = EDGE_CURVE ( 'NONE', #5, #47, #129, .T. ) ;
#154 = ORIENTED_EDGE ( 'NONE', *, *, #159, .T. ) ;
#155 = APPROVAL ( #137, 'UNSPECIFIED' ) ;
#156 = CC_DESIGN_PERSON_AND_ORGANIZATION_ASSIGNMENT ( #66, #10, ( #142 ) ) ;
#157 = PRODUCT ( 'Q-QZWP-R4-25.4-355-M', 'Q-QZWP-R4-25.4-355-M', '', ( #93 ) ) ;
#158 = DIRECTION ( 'NONE',  ( -1.000000000000000000, -0.000000000000000000, -0.000000000000000000 ) ) ;
#159 = EDGE_CURVE ( 'NONE', #5, #171, #152, .T. ) ;
#160 = SECURITY_CLASSIFICATION_LEVEL ( 'unclassified' ) ;
#161 = CARTESIAN_POINT ( 'NONE',  ( 3.000000000000000000, 0.000000000000000000, 15.00000000000000000 ) ) ;
#162 = APPROVAL_DATE_TIME ( #41, #122 ) ;
#163 = DIRECTION ( 'NONE',  ( 1.000000000000000000, 0.000000000000000000, 0.000000000000000000 ) ) ;
#164 = PERSON_AND_ORGANIZATION ( #61, #4 ) ;
#165 = DIRECTION ( 'NONE',  ( 0.000000000000000000, 0.000000000000000000, 1.000000000000000000 ) ) ;
#166 = DIRECTION ( 'NONE',  ( 1.000000000000000000, 0.000000000000000000, 0.000000000000000000 ) ) ;
#167 = UNCERTAINTY_MEASURE_WITH_UNIT (LENGTH_MEASURE( 1.000000000000000082E-05 ), #7, 'distance_accuracy_value', 'NONE');
#168 = VERTEX_POINT ( 'NONE', #74 ) ;
#169 = ADVANCED_FACE ( 'NONE', ( #71 ), #57, .F. ) ;
#170 = AXIS2_PLACEMENT_3D ( 'NONE', #35, #38, #90 ) ;
#171 = VERTEX_POINT ( 'NONE', #96 ) ;
#172 = ORIENTED_EDGE ( 'NONE', *, *, #108, .T. ) ;
#173 = APPROVAL_ROLE ( '' ) ;
#174 = DIRECTION ( 'NONE',  ( 0.000000000000000000, 0.000000000000000000, 1.000000000000000000 ) ) ;
#175 = APPROVAL_DATE_TIME ( #25, #155 ) ;
ENDSEC;
END-ISO-10303-21;
